Песня

Инструмент

Сторисы

Бой

По ритму

Аккорды

Тональность

				
Куплет:                                                      C5      D5    A5
3)---------------------------------|-----------------------5-5-5-5--7-7-7--2-|---------------------------------
4)-----10-10--9-9--7-7--6-6-6--7-7-|-----10-10--9-9--7-7---5-5-5-5--7-7-7--2-|-----10-10--9-9--7-7--6-6-6--7-7-
5)-0-0--0--0--0-0--0-0--0-0-0--0-0-|-5-5--5--5--5-5--5-5---3-3-3-3--5-5-5--0-|-0-0--0--0--0-0--0-0--0-0-0--0-0-
6)---------------------------------|-----------------------------------------|---------------------------------
                                      Припев:  G5               F5                    C                
3)-----------------------5-5-5-5--7-7-7-|-7-7-7-7-7-7-----7--5-5-5-5-5-5-----5--5-5-5-5-5-5-5-5-5-5(5-5)-
4)-----10-10--9-9--7-7---5-5-5-5--7-7-7-|-5-5-5-5-5-5-----5--3-3-3-3-3-3-----3--5-5-5-5-5-5-5-5-5-5(5-5)-
5)-5-5--5--5--5-5--5-5---3-3-3-3--5-5-5-|-5-5-5-5-5-5-----5--3-3-3-3-3-3-----3--3-3-3-3-3-3-3-3-3-3(3-3)-
6)--------------------------------------|-5-5-5-5-5-5-----5--3-3-3-3-3-3-----3---------------------------
                                          V v ^ v ^ v     v  V v ^ v ^ v     v  V v ^ v ^ V v ^ v ^(v ^)
            D5                         E5                                          G5                 F5
3)-7-7-7-7-7-7-7-7-7-7(7-7)-9-9-9-9-9-9-9-9-9-9(9-9)-9-9-9-9-9-9-9-9-9-9(9-9)-|-7-7-7-7-7-7-----7--5-5-5-5-5-5-
4)-7-7-7-7-7-7-7-7-7-7(7-7)-9-9-9-9-9-9-9-9-9-9(9-9)-9-9-9-9-9-9-9-9-9-9(9-9)-|-5-5-5-5-5-5-----5--3-3-3-3-3-3-
5)-5-5-5-5-5-5-5-5-5-5(5-5)-7-7-7-7-7-7-7-7-7-7(7-7)-7-7-7-7-7-7-7-7-7-7(7-7)-|-5-5-5-5-5-5-----5--3-3-3-3-3-3-
6)----------------------------------------------------------------------------|-5-5-5-5-5-5-----5--3-3-3-3-3-3-
   V v ^ v ^ V v ^ v ^(v ^) V v ^ v ^ V v ^ v ^(v ^) V v ^ v ^ V v ^ v ^(v ^)   V v ^ v ^ v     v  V v ^ v ^ v
          E5
3)-------------------------------------|
4)-------------------------------------|
5)-2-2-2-2-2-2-2-2-2-2-2-2-2-2-2-2-2-2-|
6)-2-2-2-2-2-2-2-2-2-2-2-2-2-2-2-2-2-2-|
   v ^ v ^ v ^ v ^ v v ^ v ^ v ^ v ^ v

Проигрыш:
                     4 раза                                   2 раза
1)------------------------------------------|-7----7-6---7----7-9--10-9-7--9-7-6-
2)------------------------------------------|----5----------5--------------------
3)------------------------------------------|------------------------------------
4)--------10-9-7-6--7-7------10-9-7-6--7-7--|------------------------------------
5)--0--------------------5---5--------------|------------------------------------
6)------------------------------------------|------------------------------------

Куплет:
Дорога вьётся змеёй,
           C5  D5 / A5  
С ней мы стали семьёй,
Пускай совсем небольшой,
Но мне здесь хорошо,

Припев:
G5                 F5
Где я молод, зол и весел,
         C5    D5     E5
Где срастается кожа и сталь,
G5           F5
У меня есть 210,
E5
Пулей летящие вдаль.

Куплет:
Понять пытается друг:
           C5  D5 / A5  
Сколько жизни вокруг?
Желанье быть одному
Неизвестно ему.

Припев:
G5                 F5
Мир твой мне неинтересен,
         C5    D5     E5
Я лечу от проблем и тревог,
G5           F5
У меня есть 210,
E5
А у тебя - ничего...

Проигрыш: x16 
                     4 раза                                   2 раза
1)------------------------------------------|-7----7-6---7----7-9--10-9-7--9-7-6-
2)------------------------------------------|----5----------5--------------------
3)------------------------------------------|------------------------------------
4)--------10-9-7-6--7-7------10-9-7-6--7-7--|------------------------------------
5)--0--------------------5---5--------------|------------------------------------
6)------------------------------------------|------------------------------------

Припев:
G5                 F5
Рёв мотора лучше песен,
         C5    D5     E5
Не догонят тоска и печаль,
G5         F5
Эти злые 210,
E5
Пулей летящие вдаль.
Какой бой?
Помогите начинающим выбрать бой для этой песни
Выберите бой и нажмите кнопку Голосовать
Проголосова 1 челове

Еще песни

Песни Новое Избранное Аккорды Настроить