Scorpions - Wind Of Change, аккорды для укулеле

  Автопрокрутка   
			
				
Intro: F Dm F Dm Am G C 

   Dm        Am7      G         
|---1-----|----0----|---------- 
|-----3---|------1--|----3----- 
|-------2-|--------0|------4--- 
|-0-------|-2-------|--------5- 
|---------|---------|---------- 
|---------|---------|-3-------- 

 
Verse 1:
C                Dm
 I follow the Moskva
               C
 Down to Gorky Park
                 Dm      Am  G  
 Listening to the Wind of Change

   Dm        Am7      G         
|---1-----|----0----|---------- 
|-----3---|------1--|----3----- 
|-------2-|--------0|------4--- 
|-0-------|-2-------|--------5- 
|---------|---------|---------- 
|---------|---------|-3-------- 

C                Dm
 An August summer night
                 C
 Soldiers passing by
                 Dm      Am  G  
 Listening to the Wind of Change

   Dm        Am7      G         
|---1-----|----0----|---------- 
|-----3---|------1--|----3----- 
|-------2-|--------0|------4--- 
|-0-------|-2-------|--------5- 
|---------|---------|---------- 
|---------|---------|-3-------- 

Whistling: F Dm Am7 G 

   Dm        Am7      G         
|---1-----|----0----|---------- 
|-----3---|------1--|----3----- 
|-------2-|--------0|------4--- 
|-0-------|-2-------|--------5- 
|---------|---------|---------- 
|---------|---------|-3-------- 

Verse 2: (clean)
C                Dm
 The World is closing in
               C
 Did you ever think
                 Dm      Am  G  
 That we could be so close, like brothers
C                Dm
 The Future?s in the air
               C
 I?can feel it everywhere
                 Dm      Am  G  
 Blowing with the Wind of Change   

CHORUS: (overdrive on)
   C     G         Dm           G
    Take me to the magic of the moment
         C     G
    on a glory night
              Dm            G             Am
    Where the children of tomorrow dream away
   Am/F            G
    In the Wind of Change

Verse 3: (clean)
C                Dm
 Walking down the street
               C
 Distant memories
                 Dm      Am  G  
 Are buried in the past forever
C                Dm
 I follow the Moskva
               C
 Down to Gorky Park
                 Dm      Am  G  
 Listening to the Wind of Change

CHORUS: (1 with and 1 without overdrive)
   C     G         Dm           G
    Take me to the magic of the moment
         C     G
    on a glory night
              Dm            G             Am
    Where the children of tomorrow dream away
   Am/F            G
    In the Wind of Change

(less overdrive/clean)
Am
 The Wind of change
       G                              Am
 Blows straight away into the face of time
                            G
 Like a stormwind that will ring the freedom bell
              C
 for peace of mind
                    Dm
 Let your balalaika sing
                          E   E
 What my guitar wants to say

Solo: F G | E Am | F G | Am
      F G | E7 Am | Dm | E

SOLO:
------------------------------------------|---------------------------------------------------------------
----12-13-12-15b17----12-13-12-15b17~~~~~-|-10-12-13-12-10------------------------------------------------
-14----------------14---------------------|----------12b14br12~~~~-------12--12b14br12--------------------
------------------------------------------|-----------------------12-----------------15----15-14-12-10-12-
------------------------------------------|---------------------------------------------------------------
------------------------------------------|---------------------------------------------------------------

------------------------------------------------------------|-------15---18---17---15------15b17--12---15---15b17-
-20b22-----br20---18-182017---------------------------------------------------------------------------------------
------------------------------------------------------------|--12----15-14---14----12---15---14---12--------------
----------------------------7----7-10-9----9--9-10--12---14-------------------------------------------------------
------------------------------------------------------------------------------------------------------------------
------------------------------------------------------------------------------------------------------------------

CHORUS: (overdrive on)
   C     G         Dm           G
    Take me to the magic of the moment
         C     G
    on a glory night
              Dm            G             Am
    Where the children of tomorrow dream away
   Am/F            G
    In the Wind of Change

OUTRO: F Dm F Dm Am G C     

Еще подборки:

Комментарии:

budulaska
+7

10.06.19

Как читать эти штуки????? С цифрами и строками

swi.pe
+5

17.06.19

а каким боем играть ?  
Юрий Визбор - Перевал

Вместо Bm можно F# смещать на один лад. Звучит лучше 
Мы - Возможно