︿

Noviembre sin ti — Reik

Укулеле
Гитара

Бой

Помогите выбрать бой

Аккорды

						 
Intro: 
   F  C  Dm F   C        G   F  C  Dm F   C        G 
e|-1--0---------------0----|-1--0---------------0----|la mas delgada 
B|-------3--1---1--3-----3-|-------3--1---1--3-----3- 
G|-------------------------|------------------------- 
D|-------------------------|------------------------- 
A|-------------------------|------------------------- 
E|-------------------------|-------------------------|la mas gruesa
 
    C                   G                  Am               Em 
La tarde se aleja, el cielo esta gris, la noche parece sin ti, 
     F                    C                     G 
Callado en la playa, te lloro en silencio otra vez. 
     C                   G              Am                    Em 
Me ahoga esta pena, no puedo vivir, las olas no me hablan de ti, 
    F                    C                   G 
Sentado en la arena, escribo tu nombre otra vez 
 
PRECORO: 
               Dm            F 
Por que te extrano, desde aquel noviembre, 
        C 
Cuando sonamos juntos a querernos siempre. 
    Dm           F 
Me duele, este frio noviembre, 
        C                  G 
Cuando las hojas caen a morir por siempre. 
 
CORO: 
   C                    G 
Noviembre sin ti es sentir que la lluvia, 
    Am                Em 
Me dice llorando que todo acabo. 
   C                   G 
Noviembre sin ti es pedirle a la luna, 
      Am                   Em               F           G 
Que brille en la noche de mi corazon  otra vez,   otra vez. 
 
           F  C  Dm F   C        G   F  C  Dm F   C        G 
e|-----0-|-1--0---------------0----|-1--0---------------0----| 
B|-1-3---|-------3--1---1--3-----3-|-------3--1---1--3-----3-| 
G|-------|-------------------------|-------------------------| 
D|-------|-------------------------|-------------------------| 
A|-------|-------------------------|-------------------------| 
E|-------|-------------------------|-------------------------| 
 
    C                   G           
Quisiera decirte, que quiero volver,
    Am                          Em  
tu nombre me he escrito en mi piel 
      F                 C                   G 
Ya es de madrugada, te sigo esperando otra vez. 
 
PRECORO: 
               Dm            F 
Por que te extrano, desde aquel noviembre, 
        C 
Cuando sonamos juntos a querernos siempre. 
    Dm           F 
Me duele, este frio noviembre, 
        C                  G 
Cuando las hojas caen a morir por siempre. 
 
CORO: 
   C                    G 
Noviembre sin ti es sentir que la lluvia, 
    Am                Em 
Me dice llorando que todo acabo. 
   C                   G 
Noviembre sin ti es pedirle a la luna, 
      Am                   Em               F           G 
Que brille en la noche de mi corazon  otra vez,   otra vez. 
 
CORO: 
   C                    G 
Noviembre sin ti es sentir que la lluvia, 
    Am                Em 
Me dice llorando que todo acabo. 
   C                   G 
Noviembre sin ti es pedirle a la luna, 
      Am                   Em               F           G 
Que brille en la noche de mi corazon  otra vez,   otra vez. 
 
OUTRO: 
           F  C  Dm F   C        G   F  C  Dm F   C        G       F   C 
e|-----0-|-1--0---------------0----|-1--0---------------0----|------- 
B|-1-3---|-------3--1---1--3-----3-|-------3--1---1--3-----3-|-1-0-1- 
G|-------|-------------------------|-------------------------|------- 
D|-------|-------------------------|-------------------------|------- 
A|-------|-------------------------|-------------------------|------- 
E|-------|-------------------------|-------------------------|-------

Аккорды Reik - Noviembre sin ti для гитары и укулеле

Какой бой?
Помогите начинающим выбрать бой для этой песни
Выберите бой и нажмите кнопку Голосовать
Проголосовали 0 человека

Еще песни

UKULA

Темная версия

По все вопросам em64ru@yandex.ru

Шрифт

|
+

Дизайн