︿

Bounce — Calvin Harris

Укулеле
Гитара

Бой

Помогите выбрать бой

Аккорды

						 
the start of bounce is the same riff all the way through the song so to play whole song 
just keep repeating, the song starts on fret 12 bottom string.

FIRST RIFF
12--10--9--10------------------------------------------|
--------------10--12------10--12-----------------------|
--------------------11--12------11--99-----------------|
---------------------------------------11--9-----------|
SECOND RIFF
12--10--9--10------------------8-----------------------------|
---------------10--12-------------10--12---------------------|
-----------------------11--12-------------11--99-------------|
--------------------------------------------------11--9------|

Аккорды Calvin Harris - Bounce для гитары и укулеле

Какой бой?
Помогите начинающим выбрать бой для этой песни
Выберите бой и нажмите кнопку Голосовать
Проголосовали 0 человека

Еще песни

UKULA

Темная версия

По все вопросам em64ru@yandex.ru

Шрифт

|
+

Дизайн