︿

Пойдём в Макдак (Ваганыч) — ПОСТная херня

Укулеле
Гитара

Бой

Аккорды

						 
Вступление: 
Em               C                G                B           
|----------------|----------------|----------------|----------------|
|----------------|----------------|----------------|----------------|
|----------------|9-7-------------|----------------|9-7-------------|
|--------9-7-----|------9---7---9-|--------9-7-----|------9---7-----|
|7-----7---------|----------------|------7---------|--------------10|
|----------------|----------------|----------------|----------------|

Em               C                G                B           
|----------------|----------------|----------------|----------------|
|----------------|----------------|----------------|----------------|
|----------------|9-7-------------|----------------|----------------|
|--------9-7-----|------9---7---9-|--------9-7-----|----------------|
|------7---------|----------------|------7-------10|----------------|
|----------------|----------------|----------------|----------------|

             Em C         
Ты знаешь, Катя,
                G                   B
Мне здесь так грустно, просто смерть,
              Em C
Но с меня хватит,
        G            B
Мы не обязаны терпеть.

              Em          C 
Ты знаешь, есть такое место, 
           G              B
Где на дают сосисок в тесте, 
            Em            C
Где не обидит старшеклассник
              G           B
Тех, кто слабее или младше.

            Em             C
Рай на Земле - торговый центр,
             G                B
Там можно всё, пускай за деньги,
                 Em         C
Пусть тот сильнее, кто заплатит
               G B
Но знаешь, Катя...

               Em                   C
Пойдем в Макдак, садись в маршрутку,
                G       B
Возьмем картошку на двоих,
               Em      C          
А крошки скормим голубям
               G B
И в парке уткам...

              Em              C
Пойдем в Макдак, мне так уютней,
              G           B
Я там не видел грязных стен,
                Em           C
Там вкусно пахнет, нет проблем
              G B
И серых будней...

             Em C G B Em C G B
Пойдем в макдак.

Проигрыш в конце (+гитара как во вступлении):
Em               C                G                B
|----------------|--------7-------|----------------|--------7-----|
|10--8-----------|10--8-------7---|10--8-----------|10--8-------7-|
|--------9---7---|----------------|--------9---7---|--------------|
|----------------|----------------|----------------|--------------|
|----------------|----------------|----------------|--------------|
|----------------|----------------|----------------|--------------|

Em               C                G                B
|----------------|--------7-------|----------------|--------7-----|
|10--8-----------|10--8-------7---|10--8-----------|10--8-------7-|
|--------9---7---|----------------|--------9---7---|--------------|
|----------------|----------------|----------------|--------------|
|----------------|----------------|----------------|--------------|
|----------------|----------------|----------------|--------------|

Аккорды ПОСТная херня - Пойдём в Макдак (Ваганыч) для гитары и укулеле

Какой бой?
Помогите начинающим выбрать бой для этой песни
Выберите бой и нажмите кнопку Голосовать
Проголосовал 4 человек

Еще песни

Пойдем в Макдак

ЖЩ

Я иду туда куда глаза мои глядят

Виктор Цой

Посвящение Марку Болану

Виктор Цой

Совет в Филях (Полыхало)

Ва-БанкЪ

Ла Ла Ла

Шлюз

Ах ты, душечка

Разные песни

Малиновые волосы

ПОСТная херня

Пойдём в Макдак (Ваганыч)

ПОСТная херня

Пойдём в макдак

ПОСТная херня

Малиновые волосы

ПОСТная херня

Пойдём в макдак

ПОСТная херня

Ах ты, душечка

Народные и застольные песни

Имя

Лиля Брик

Пoйдeм сo мнoй

Калинов Мост

Пойдем со мной

Калинов Мост

Ла Ла Ла

Жанна Фриске

Ла-ла-ла

Жанна Фриске

Ла-ла-ла

Жанна Фриске

Пойдём домой

Чиж

Дай мне руку

Бригада С

Все мы пойдем вслед за Джа

Арефьева Ольга

Мы туда не пойдем

Александр Литвинов

Если пойдём вдвоём

Юрий Антонов

Пойдём в McDonalds

Включай Микрофон

17 (Семнадцать)

Irina Veter

Дай мне руку

Гарик Сукачев

Мы не пойдем в кино

Бахыт Компот

Смело мы в бой пойдем

Военные, армейские песни

Пойдём на улицу

Тараканы

Конь

Любэ

UKULA

Темная версия

По все вопросам em64ru@yandex.ru

Шрифт

|
+

Дизайн