︿

Smells Like Teen Spirit (tab) — Nirvana

Укулеле
Гитара

Бой

Помогите выбрать бой

Аккорды

						 
Intro:
|-------------------------------------------------------|
|-------------------------------------------------------|
|-------x-3-33------xxxx-6-66----------3-33-------------|
|-3-33-xx-3-33-6-66-xxxx-6-66-3-33-xxx-3-33-x6x6--6/----|
|-3-33-xx-1-11-6-66-xxxx-4-44-3-33-xxx-1-11-x6x6--6/----|
|-1-11-xx------4-44-xxxx------1-11-xxx------x4x4--4/----|
(clean)                                             
                                          about here when distor. goes on

(Every power chord is played with downstrokes and upstrokes, if you can't tell.)

Then:     my shitty attempt at deciphering the high notes...
        /
|(--0---0--0--0---0---0--0--0)|
|(0-x0-00--x-x0-0-0--0x0---x0)|
|-x-xx-xxx-3-33-x-xx-xxx-6-66-|
|-3-33-xxx-3-33-6-66-xxx-6-66-|
|-3-33-xxx-1-11-6-66-xxx-4-44-| x3
|-1-11-xxx------4-44-xxx------|
(distorted)               /
               The high notes are accidental, I presume.
               Sound pretty cool though :).

Verse:
|------|
|---6~-|
|-5----| Every time the bass runs through
|------| the chorus(I suppose) Kurt does
|------| this. (clean, duh)
|------|

|-----------|
|--6-6-6-6--| (picked rapidly)
|-5-5-5-5-5-| etc...this is through the
|-----------| hello hello hello, how low part.
|-----------| (distorted, duh)
|-----------|

             all the () notes can be ignored
Chorus:      / 
|(--0---0---------0---0--0--0)|
|(0-x0-0x--x-x0-0-0--0x0---x0)|
|-x-xx-xxx-3-33-x-x--xxx-6-66-|
|-3-33-xxx-3-33-6-66-xxx-6-66-|
|-3-33-xxx-1-11-6-66-xxx-4-44-|
|-1-11-xxx------4-44-xxx------|


Hey! YAY!:
|-----------------|
|-----------------|
|-2-2-3-3-4-4b6~~-| Hey! Lol, it's distorted.
|-2-2-3-3-4-------| (sing hey on the bend)
|-0-0-1-1-2-------|
|-----------------|

|-----------------|
|-----------------|
|-2-2-3-3-7-7-6-2-| Goes after the Hey! part,
|-2-2-3-3-7-7-6-2-| Kurt does 2 Heys with this
|-0-0-1-1-5-5-4-0-| (distorted.)
|-----------------|  

Solo:
|-------------------------------------------------------------------|
|---4-6-------------------------------4-6---------------------------|
|-5-------4-4b6-4-2-----------------5-------4-4b6-4-2---------------|
|-------6-----------3-1-3-1-3b5-3-1-------6-----------3-1-3-1-3-3b5-|
|-------------------------------------------------------------------|
|-------------------------------------------------------------------|

|-------------------------------------------------------------------|
|-------------------------------------------------------------------|
|-------------------------------------------------------------------|
|-3-1---------------------------------------------------------------|
|-----6-5-6-5-6-5-6b(7)-5-6-5-6-5-6-5-6b(7)-5-6-5-6-5-6-5-6b(7)-5-6-|
|-------------------------------------------------------------------|

|---------------------------|
|---------------------------| 
|---------------------------| 
|---------------3~~~~~~~~~~-| 
|-5-6-5-6b7-6-5-------------| 
|---------------------------|

Аккорды Nirvana - Smells Like Teen Spirit (tab) для гитары и укулеле

Какой бой?
Помогите начинающим выбрать бой для этой песни
Выберите бой и нажмите кнопку Голосовать
Проголосовали 0 человека

Еще песни

UKULA

Темная версия

По все вопросам em64ru@yandex.ru

Шрифт

|
+

Дизайн