︿

Paalam Na — Mymp

Укулеле
Гитара

Бой

Помогите выбрать бой

Аккорды

Тональность



						 
Capo fret 1 
 
INTRO: 
E|-----------4p0--0-| 
B|--2--------2----2-| 
G|--------1---------| 
D|-----2------------| 
A|--0---------------| 
E|------------------| 
 
E|--2-----5--2-| 
B|-----------2-| 
G|-----2-------| 
D|--0----------| 
A|-------------| 
E|-------------| 
 
E|-----------4p0--0-| 
B|--2--------2----2-| 
G|--------1---------| 
D|-----2------------| 
A|--0---------------| 
E|------------------| 
 
E|--2-----5--2---3----------------12harm-| 
B|-----------2---3---0----12harm---------| 
G|-----2-------------2-------------------| 
D|--0------------------------------------| 
A|---------------1-----------------------| 
E|-------------------0-------------------| 
 
VERSE: 
"bakit ng nagpaalam ka.." 
E|--------------------------| 
B|--2---5----5---5---3----3-| 
G|--1---4--4-----4---2--2---| 
D|--------------------------| 
A|--0-----------------------| 
E|------4--------3---2------| 
 
"sabi mo ay babalik..." 
E|-------------------2---------------| 
B|--3-----2----------3----------3--0-| 
G|--2-----2---------------------2--1-| 
D|----------------4----------3-----2-| 
A|-----0-------2----------2--------2-| 
E|--1------------------------------0-| 
 
PRE-CHORUS: 
"hindi ko napansin...paglipas ng araw..." 
E|---------------------0----------------------0----| 
B|-----------5---------2------------5------------2-| 
G|--------4--4------2------------4--4------2-------| 
D|-----2----------------------2--------------------| 
A|---------------0----------------------0----------| 
E|--4----------------------4-----------------------| 
 
"ang nasa isip ko..." 
E|-----------------2-| 
B|--2--2--------2--2-| 
G|--2--2--2-----2----| 
D|--4--2-----2-------| 
A|--4--4-------------| 
E|--------2----------| 
 
"laging ikaw..." 
E|-----2-------------0---0-| 
B|-----3-----------0-----0-| 
G|---------------2-------2-| 
D|-------------2---------2-| 
A|--2--------2-----------2-| 
E|---------0-------------0-| 
 
CHORUS: 2x 
"paalam na..." 
E|--2----0----4----2-| 
B|--3----0----5----2-| 
G|--2----1----4----2-| plucking 
D|--0----2----6----2-| 
A|-------2----4----4-| 
E|-------0---------2-| 
 
"may iba mang mahal..."....nagtagal..." 
E|----------2----0-------0--| 
B|----------3----0-------2--| 
G|----------2----1-------2--| plucking 
D|----------4----2-------2--| 
A|----------2----2-------0--| 
E|---------------0----------| 
 
ADLIB: 
E|-----------4p0--0--|--2-----5--7--| 
B|--2--------2----2--|--------------| 
G|--------1----------|-----2--------| 
D|-----2-------------|--0-----------| 
A|--0----------------|--------------| 
E|-------------------|--------------| 
 
E|-----------4p0--0--|--2-----5--2--| 
B|--2--------2----2--|-----------2--| 
G|--------1----------|-----2--------| 
D|-----2-------------|--0-----------| 
A|--0----------------|--------------| 
E|-------------------|--------------| 
 
E|--3----------------12harm--| 
B|--3---0----12harm----------| 
G|------2--------------------| 
D|---------------------------| 
A|--1------------------------| 
E|------0--------------------| 
 
SOLO ADLIB: 
 D - E - C#m7 - F#m7 - Bm7 - E
 
LEAD GUITAR: 
E|----------------|---------------------| 
B|--3--3--5--5/7--|--7--7--7--7/9--7--5-| 
G|----------------|---------------------| 
D|----------------|---------------------| 
A|----------------|---------------------| 
E|----------------|---------------------| 
 
E|------------------------|------------------------| 
B|--5/10--9--7--5--10-10--|------------------------| 
G|------------------------|--6/7--6--4-------------| 
D|------------------------|-------------7--6--6/7--| 
A|------------------------|------------------------| 
E|------------------------|------------------------| 
 
REPEAT CHORUS
 
"ang puso'y naghihintay..." 
 Bm7 - C#m7 - Dmaj7   -   Amaj7    


Аккорды Mymp - Paalam Na для гитары и укулеле

Какой бой?
Помогите начинающим выбрать бой для этой песни
Выберите бой и нажмите кнопку Голосовать
Проголосовали 0 человека

Еще песни

UKULA

Темная версия

Шрифт

|
+

Дизайн