Песня

Инструмент

Сторисы

Аккорды

Тональность

				
    Bm     F#7      B     Em         D        Bm
1|--2---2-3------------2--(3)--3-2-0--------0-2----3-2----
2|--------------0-2-4----------------3---2-3-----------3--
3|---------3---3------------------------------------------
4|------------------------2----------0--------4-----------
5|------------------2-------------------------------------
6|--------------------------------------------------------

Em               Em/C# (x42000)
Когда вернется посылка назад,
    F#7 (x42320)         Bm
Я поверю, что нет больше Бога,
Em/C#          F#7                   Bm  F#m  G
Иначе как объяснить, что тебя больше нет?..
B                Em (022003)
А я так много могла сказать,
B            B7 (224245) C (335553)
Спросить у тебя так много...
Bm                F#7
Привычно край оборвать, и найти ответ...

Bm Em Bm F#7 }x2

Без выходных суетясь, Судьба
Плевала на наше братство,
                            Bm F#m G (7A9787) G6 (7x9789) (B XI)
Не прекращая свое колесо вращать.
А я, с улыбкою на губах,
Наивно писала: "Здравствуй!",
Не представляя, что надо писать "Прощай!"...

(Em XII fl.)
Осекся мой торопливый бег,
И я на распутье встала.
Молиться некому - вот, я тебе молюсь...
Я так любила писать тебе,
Я знала тебя так мало...
Ты расскажи мне, теперь я не тороплюсь!

     Bm  {  Em     Bm    F#7   Bm    }
1|---0-2---3-2-0------------0--2--------
2|--3------0------3-(23)-2-3---3-(3-3)--
3|--4------0------4------3-----4-(-4-)--
4|--4------2------4------4-----4--------
5|-----------------------4--------------
6|--------------------------------------
Какой бой?
Помогите начинающим выбрать бой для этой песни
Выберите бой и нажмите кнопку Голосовать
Проголосовали 0 человека

Еще песни

Песни Новое Избранное Аккорды Настроить